Wednesday, January 26, 2011

tune mere jana - i feel lonely



emptiness By Rohan Rathore official video


Emptiness- Rohan Rathore with lyrics


Lonely (Tune Mere Jaana).......Lyrics n Chords


==============================================

I think the chords are -- 'F, Dm, Bb, C' or standard tuning,,capo on 1st - 'E, C#m, A, B'...Try it!

==============================================
HEY USE A#M INSTEAD OF G....IT SOUNDS BETTER... D SEQUENCE IS F,Am,A#M,C.... TRY DIS .

==============================================
1) F ( C is given in this song)

2)A minor

3)1st fret covered by 1st finger and 2nd 3rd n 4th finger on 3rd 4th n 5th string respectively from uppermost string at 3rd fret

4)C (G is given in this song)
==============================================

Original Song: Tune mere jaana "Lonely"
Singer & Music: Gajender Verma
Lyrics: Moonami Roy, Aseem Ahmed Abbasee
Chords: Sameer


Ho love of mine..
with a song and a whine..
You're harsh and divine..
like truths and a lie..
but the tale end is not here..
I've nothing to fear..
for my love is yell of giving and hold on...
in the bright emptiness..
in a room full of it..
is the cruel mistress ho ho o...
I feel the sunrise..
that nest all hollowness..
for i have the way to go.. not come...
And i feel so lonely yea..
There's a better place from this emptiness..
And i'm so lonely yea..
There's a better please from this emptiness.. yei yei yei ya....

Aa.. aa.. aa.....

Tune mere jaana..
Kabhi nahi jana..
Ishq mera dard mera.. haaye...
Tune mere jaana..
Kabhi nahi jana..
Ishq mera dard mera ...
Aashiq teraaa..
Bheed mein khoya rehta hai..
Jaane jahaan a..
Puchho toh itna kehta hai..
And i feel so lonely yea..
There's a better place from this emptiness..
And i'm so lonely yea..
There's a better please from this emptiness.. yei yei yei ya....



http://abhishek-bit.blogspot.com/2010/11/lyrics-of-emptinesslonely-rohan-rathore.html
Read More at.. Abhishek in Bits and Bytes: Emptiness!!(Lonely) Rohan Rathore IIT Guwahati (Lyrics and Chords)[tune mere jana kabhi nahi jana ishq mera dard mera..] http://abhishek-bit.blogspot.com/2010/11/lyrics-of-emptinesslonely-rohan-rathore.html#ixzz1CDSRCc7d
Abhishek Singh
Under Creative Commons License: Attribution
Rohan Rathore - Emptiness Lonely Chords


The intro lead is played with a piano which continues throughout the song.



The guitar tabs are as follows. The tabs are given in a lower octave which
sound equally appealing. To math the original octave, place a capo on the
12th fret and follow the same tabs.
----------------------------------------------------------------------|
-----1-------1---------1-------1--------------------------------------|
---2---2---2---2-----2---2---2-----------3-------3--------------------|
-3-------3---------2-------2-----------3---3---3---3------------------|
-------------------------------------5-------5------------------------|
----------------------------------------------------------------------|

----------------------------|
----------------------------|
-----0-----0-2-0------------|
---2---2---------3----------|
-3--------------------------|
----------------------------|

The song -

F
Ho love of mine..
       Am
with a song and a wine..
       Dm
You're harsh and divine..
            C
like truths and a lie..

F
but the tale end's not here..
     Am
I've nothing to fear..
       Dm                         C
for my love is yell of giving an hold on..

       F
in the bright emptiness..
       Am
in the room full of it..
     Dm                 C
is a cruel mistress ho ho o..

  F
I feel the sunrise..
          Am
that nest all hollowness..
      Dm                         C
for i have nowhere to go and im cold..

              F      Am
And i feel so lonely yea..
Dm                               C
There's a better place from this emptiness..
           F      Am
And i'm so lonely yea..
Dm                               C
There's a better place from this emptiness..

F  Am  Dm  C
yei yei yei ya...
F  Am  Dm  C
Aa.. aa.. aa...

          F
Tune mere jaana..
           Am
Kabhi nahi jana..
Dm               C
Ishq mera dard mera.. haaye...

F
Tune mere jaana..
Am
Kabhi nahi jana..
Dm               C
Ishq mera dard mera...

       F    Am
Aashiq teraaa..
Dm                  C
Bheed mein khoya rehta hai..
      F        Am
Jaane jahaan aaa..
Dm                 C
Puchho toh itna kehta hai..

             F        Am
And i feel so lonely yea..
Dm                               C
There s a better place from  this emptiness..
           F        Am
And i'm so lonely yea..




======= the best one ============

Album: Emptiness By Rohan Rathore

F----------------------- 
Oh love of mine
Am---------------------------------
With a song and a wine
Bb-----------------------------------
You're harsh and divine
C------------------------------
Like truths and a lie

F-----------------------------------------
But the tale ends not here
Am------------------------------
I have nothing to fear
F-------------------Bb----------------------------C---------
For my love is hell of giving and hold on
www-chordsntabs-blogspot-com
F---------------------------------------
And the bright emptiness
C---------------------------
In a room full of it
Dm------------------------
Is a cruel mistress
C-------------
Woah oh!

F------------------------
I feel this unrest
C------------------------------------
That nest all hollowness
Dm------------------------------------------C---------
For I have nowhere to go in the cold

F----------------------Dm---
And I feel so lonely
Bb------------------------------------------------
There's a better place than this
C--------------
Emptiness
F----------------Dm-----
And I'm so lonely
Bb-----------------------------------------------
There's a better place than this
C--------------------F---------------
Emptiness, Yeaheaeah!
www-chordsntabs-blogspot-com
Dm-----------------------
Tune mere jaana
Dm----------------------
Kabhi nahi jaana
Bb---------------C--------------
Ishq mera, dard mera, Haaye!

F--------------------------
Tune mere jaana
Dm----------------------
Kabhi nahi jaana
Bb--------------C--------------
Ishq mera, dard mera

F--------------------Gm(Ending Notes)
Aashiq tera
Bb----------------------C------------
Bhid me khoya rehta hai,
F---------------------Gm(Ending Notes) 
Jaane jahaan
Bb---------------------C------------
Poocho to itna kehta hai

F----------------------Dm----
That i feel so lonely
Bb------------------------------------------------
There's a better place than this
C--------------
Emptiness

F-----------------Dm----
And I'm so lonely
Bb-----------------------------------------------
There's a better place than this
C-------------------F---------------
Emptiness, Yeaheaeah!

No comments:

Post a Comment

Post a Comment